ISO-10303-21;
HEADER;
FILE_DESCRIPTION (( 'STEP AP203' ),
    '1' );
FILE_NAME ('252200133_c_1.STEP',
    '2023-01-16T03:10:41',
    ( '' ),
    ( '' ),
    'SwSTEP 2.0',
    'SolidWorks 2014',
    '' );
FILE_SCHEMA (( 'CONFIG_CONTROL_DESIGN' ));
ENDSEC;

DATA;
#1 = DATE_TIME_ROLE ( 'creation_date' ) ;
#2 = LINE ( 'NONE', #213, #263 ) ;
#3 = ORIENTED_EDGE ( 'NONE', *, *, #95, .T. ) ;
#4 = DIRECTION ( 'NONE',  ( 1.000000000000000000, -0.0000000000000000000, -0.0000000000000000000 ) ) ;
#5 = DIRECTION ( 'NONE',  ( -1.000000000000000000, 0.0000000000000000000, 0.0000000000000000000 ) ) ;
#6 = DESIGN_CONTEXT ( 'detailed design', #256, 'design' ) ;
#7 = AXIS2_PLACEMENT_3D ( 'NONE', #25, #5, #28 ) ;
#8 = LINE ( 'NONE', #332, #113 ) ;
#9 = CARTESIAN_POINT ( 'NONE',  ( -741.0000000000000000, 3.829999999999980100, 2.829999999999980100 ) ) ;
#10 = CYLINDRICAL_SURFACE ( 'NONE', #36, 0.4000000000000010200 ) ;
#11 = LINE ( 'NONE', #103, #166 ) ;
#12 = FACE_OUTER_BOUND ( 'NONE', #153, .T. ) ;
#13 = AXIS2_PLACEMENT_3D ( 'NONE', #196, #338, #245 ) ;
#14 = VERTEX_POINT ( 'NONE', #122 ) ;
#15 = ADVANCED_FACE ( 'NONE', ( #133 ), #194, .F. ) ;
#16 = EDGE_LOOP ( 'NONE', ( #367, #85, #205, #251 ) ) ;
#17 = DIRECTION ( 'NONE',  ( -1.000000000000000000, 0.0000000000000000000, -0.0000000000000000000 ) ) ;
#18 = CC_DESIGN_PERSON_AND_ORGANIZATION_ASSIGNMENT ( #168, #147, ( #172 ) ) ;
#19 = AXIS2_PLACEMENT_3D ( 'NONE', #267, #145, #79 ) ;
#20 = APPROVAL_DATE_TIME ( #99, #151 ) ;
#21 = VERTEX_POINT ( 'NONE', #334 ) ;
#22 = EDGE_LOOP ( 'NONE', ( #283, #238, #197, #198 ) ) ;
#23 = CARTESIAN_POINT ( 'NONE',  ( -741.0000000000000000, -0.7275322269842640100, -4.200000000000001100 ) ) ;
#24 = DATE_TIME_ROLE ( 'classification_date' ) ;
#25 = CARTESIAN_POINT ( 'NONE',  ( 759.0000000000000000, -3.598128970339700100, -0.4000000000000010200 ) ) ;
#26 = LOCAL_TIME ( 19, 10, 41.00000000000000000, #106 ) ;
#27 = DIRECTION ( 'NONE',  ( 0.0000000000000000000, 2.168404344971003300E-015, 1.000000000000000000 ) ) ;
#28 = DIRECTION ( 'NONE',  ( 0.0000000000000000000, 0.0000000000000000000, 1.000000000000000000 ) ) ;
#29 = CIRCLE ( 'NONE', #259, 8.499999999999980500 ) ;
#30 = VERTEX_POINT ( 'NONE', #154 ) ;
#31 = DIRECTION ( 'NONE',  ( 0.0000000000000000000, -8.673617379884055200E-016, 1.000000000000000000 ) ) ;
#32 = AXIS2_PLACEMENT_3D ( 'NONE', #162, #125, #330 ) ;
#33 = COORDINATED_UNIVERSAL_TIME_OFFSET ( 8, 0, .BEHIND. ) ;
#34 = ORIENTED_EDGE ( 'NONE', *, *, #109, .T. ) ;
#35 = ORIENTED_EDGE ( 'NONE', *, *, #40, .T. ) ;
#36 = AXIS2_PLACEMENT_3D ( 'NONE', #291, #265, #108 ) ;
#37 = FACE_OUTER_BOUND ( 'NONE', #228, .T. ) ;
#38 = ORIENTED_EDGE ( 'NONE', *, *, #328, .F. ) ;
#39 = CARTESIAN_POINT ( 'NONE',  ( -741.0000000000000000, -3.598128970339700100, -0.4000000000000010200 ) ) ;
#40 = EDGE_CURVE ( 'NONE', #45, #30, #8, .T. ) ;
#41 = EDGE_LOOP ( 'NONE', ( #305, #139, #3, #34 ) ) ;
#42 = ORIENTED_EDGE ( 'NONE', *, *, #268, .F. ) ;
#43 = DIRECTION ( 'NONE',  ( 0.0000000000000000000, 0.0000000000000000000, 1.000000000000000000 ) ) ;
#44 = DIRECTION ( 'NONE',  ( 1.000000000000000000, -0.0000000000000000000, 0.0000000000000000000 ) ) ;
#45 = VERTEX_POINT ( 'NONE', #58 ) ;
#46 = APPLICATION_PROTOCOL_DEFINITION ( 'international standard', 'config_control_design', 1994, #256 ) ;
#47 = AXIS2_PLACEMENT_3D ( 'NONE', #56, #54, #121 ) ;
#48 = DIRECTION ( 'NONE',  ( 0.0000000000000000000, 0.0000000000000000000, 1.000000000000000000 ) ) ;
#49 = CARTESIAN_POINT ( 'NONE',  ( 759.0000000000000000, 3.829999999999980100, 2.829999999999980100 ) ) ;
#50 = PERSON_AND_ORGANIZATION ( #202, #342 ) ;
#51 = DIRECTION ( 'NONE',  ( -0.0000000000000000000, 1.000000000000000000, 0.0000000000000000000 ) ) ;
#52 = ORIENTED_EDGE ( 'NONE', *, *, #136, .F. ) ;
#53 = DIRECTION ( 'NONE',  ( 0.0000000000000000000, 0.0000000000000000000, 1.000000000000000000 ) ) ;
#54 = DIRECTION ( 'NONE',  ( 1.000000000000000000, -0.0000000000000000000, -0.0000000000000000000 ) ) ;
#55 = DIRECTION ( 'NONE',  ( 0.0000000000000000000, 0.0000000000000000000, 1.000000000000000000 ) ) ;
#56 = CARTESIAN_POINT ( 'NONE',  ( 759.0000000000000000, 3.829999999999980100, 2.829999999999980100 ) ) ;
#57 = CARTESIAN_POINT ( 'NONE',  ( 759.0000000000000000, -3.964950154060185000, -0.5595061728395087600 ) ) ;
#58 = CARTESIAN_POINT ( 'NONE',  ( 759.0000000000000000, 3.964950154060180600, -0.5595061728395063200 ) ) ;
#59 = ORIENTED_EDGE ( 'NONE', *, *, #340, .T. ) ;
#60 = DIRECTION ( 'NONE',  ( 0.0000000000000000000, 0.0000000000000000000, 1.000000000000000000 ) ) ;
#61 = AXIS2_PLACEMENT_3D ( 'NONE', #243, #117, #155 ) ;
#62 = CYLINDRICAL_SURFACE ( 'NONE', #361, 0.4000000000000010200 ) ;
#63 = ORIENTED_EDGE ( 'NONE', *, *, #65, .F. ) ;
#64 = CC_DESIGN_APPROVAL ( #151, ( #172 ) ) ;
#65 = EDGE_CURVE ( 'NONE', #21, #331, #343, .T. ) ;
#66 = APPROVAL_DATE_TIME ( #233, #83 ) ;
#67 = PERSON_AND_ORGANIZATION ( #202, #342 ) ;
#68 = LINE ( 'NONE', #356, #189 ) ;
#69 = FACE_OUTER_BOUND ( 'NONE', #22, .T. ) ;
#70 = ADVANCED_FACE ( 'NONE', ( #100 ), #230, .T. ) ;
#71 = EDGE_LOOP ( 'NONE', ( #323, #276, #301, #280, #52, #235, #239, #379 ) ) ;
#72 = ADVANCED_FACE ( 'NONE', ( #336 ), #62, .T. ) ;
#73 = CARTESIAN_POINT ( 'NONE',  ( -741.0000000000000000, -0.7275322269842809900, -3.500000000000000000 ) ) ;
#74 = CYLINDRICAL_SURFACE ( 'NONE', #170, 0.6999999999999970700 ) ;
#75 = CARTESIAN_POINT ( 'NONE',  ( 759.0000000000000000, 3.598128970339709900, 0.0000000000000000000 ) ) ;
#76 = CLOSED_SHELL ( 'NONE', ( #134, #135, #257, #281, #72, #70, #229, #311, #98, #15 ) ) ;
#77 = DIRECTION ( 'NONE',  ( 0.0000000000000000000, 1.000000000000000000, 0.0000000000000000000 ) ) ;
#78 = CIRCLE ( 'NONE', #293, 0.4000000000000010200 ) ;
#79 = DIRECTION ( 'NONE',  ( 0.0000000000000000000, 2.168404344971003300E-015, 1.000000000000000000 ) ) ;
#80 = VERTEX_POINT ( 'NONE', #57 ) ;
#81 =( GEOMETRIC_REPRESENTATION_CONTEXT ( 3 ) GLOBAL_UNCERTAINTY_ASSIGNED_CONTEXT ( ( #375 ) ) GLOBAL_UNIT_ASSIGNED_CONTEXT ( ( #272, #270, #304 ) ) REPRESENTATION_CONTEXT ( 'NONE', 'WORKASPACE' ) );
#82 = EDGE_CURVE ( 'NONE', #201, #30, #364, .T. ) ;
#83 = APPROVAL ( #266, 'UNSPECIFIED' ) ;
#84 = CARTESIAN_POINT ( 'NONE',  ( -741.0000000000000000, 3.598128970339700100, -0.4000000000000000200 ) ) ;
#85 = ORIENTED_EDGE ( 'NONE', *, *, #268, .T. ) ;
#86 = EDGE_CURVE ( 'NONE', #14, #127, #182, .T. ) ;
#87 = CARTESIAN_POINT ( 'NONE',  ( 759.0000000000000000, 0.7275322269842485800, -4.199999999999999300 ) ) ;
#88 = AXIS2_PLACEMENT_3D ( 'NONE', #275, #128, #89 ) ;
#89 = DIRECTION ( 'NONE',  ( 0.0000000000000000000, 0.0000000000000000000, 1.000000000000000000 ) ) ;
#90 = CIRCLE ( 'NONE', #47, 8.499999999999980500 ) ;
#91 = DIRECTION ( 'NONE',  ( 0.0000000000000000000, 0.0000000000000000000, 1.000000000000000000 ) ) ;
#92 = LINE ( 'NONE', #318, #313 ) ;
#93 = ORIENTED_EDGE ( 'NONE', *, *, #86, .F. ) ;
#94 = EDGE_CURVE ( 'NONE', #255, #201, #152, .T. ) ;
#95 = EDGE_CURVE ( 'NONE', #288, #337, #29, .T. ) ;
#96 = VECTOR ( 'NONE', #303, 1000.000000000000000 ) ;
#97 = CC_DESIGN_DATE_AND_TIME_ASSIGNMENT ( #167, #1, ( #172 ) ) ;
#98 = ADVANCED_FACE ( 'NONE', ( #254 ), #299, .T. ) ;
#99 = DATE_AND_TIME ( #226, #200 ) ;
#100 = FACE_OUTER_BOUND ( 'NONE', #16, .T. ) ;
#101 = DIRECTION ( 'NONE',  ( 0.0000000000000000000, -1.000000000000000000, -0.0000000000000000000 ) ) ;
#102 = DIRECTION ( 'NONE',  ( 1.000000000000000000, -0.0000000000000000000, -0.0000000000000000000 ) ) ;
#103 = CARTESIAN_POINT ( 'NONE',  ( 759.0000000000000000, 3.598128970339709900, 0.0000000000000000000 ) ) ;
#104 = COORDINATED_UNIVERSAL_TIME_OFFSET ( 8, 0, .BEHIND. ) ;
#105 = CC_DESIGN_PERSON_AND_ORGANIZATION_ASSIGNMENT ( #224, #148, ( #350 ) ) ;
#106 = COORDINATED_UNIVERSAL_TIME_OFFSET ( 8, 0, .BEHIND. ) ;
#107 = CARTESIAN_POINT ( 'NONE',  ( 759.0000000000000000, 3.598128970339709900, 0.0000000000000000000 ) ) ;
#108 = DIRECTION ( 'NONE',  ( 0.0000000000000000000, 0.0000000000000000000, 1.000000000000000000 ) ) ;
#109 = EDGE_CURVE ( 'NONE', #337, #127, #92, .T. ) ;
#110 = CARTESIAN_POINT ( 'NONE',  ( 759.0000000000000000, -3.830000000000020100, 2.830000000000009800 ) ) ;
#111 = AXIS2_PLACEMENT_3D ( 'NONE', #232, #203, #349 ) ;
#112 = CC_DESIGN_PERSON_AND_ORGANIZATION_ASSIGNMENT ( #347, #354, ( #350 ) ) ;
#113 = VECTOR ( 'NONE', #360, 1000.000000000000000 ) ;
#114 = ORIENTED_EDGE ( 'NONE', *, *, #86, .T. ) ;
#115 = APPROVAL_ROLE ( '' ) ;
#116 = EDGE_CURVE ( 'NONE', #183, #144, #11, .T. ) ;
#117 = DIRECTION ( 'NONE',  ( 0.0000000000000000000, 0.0000000000000000000, 1.000000000000000000 ) ) ;
#118 = ORIENTED_EDGE ( 'NONE', *, *, #306, .F. ) ;
#119 = CARTESIAN_POINT ( 'NONE',  ( -741.0000000000000000, -1.136541460998354000, -4.068076972329649300 ) ) ;
#120 = ORIENTED_EDGE ( 'NONE', *, *, #109, .F. ) ;
#121 = DIRECTION ( 'NONE',  ( 0.0000000000000000000, -8.673617379884055200E-016, 1.000000000000000000 ) ) ;
#122 = CARTESIAN_POINT ( 'NONE',  ( 759.0000000000000000, -0.7275322269842640100, -4.200000000000001100 ) ) ;
#123 = APPROVAL ( #355, 'UNSPECIFIED' ) ;
#124 = MANIFOLD_SOLID_BREP ( 'Volumenk\X\F6rper1', #76 ) ;
#125 = DIRECTION ( 'NONE',  ( -1.000000000000000000, 0.0000000000000000000, 0.0000000000000000000 ) ) ;
#126 = AXIS2_PLACEMENT_3D ( 'NONE', #49, #236, #48 ) ;
#127 = VERTEX_POINT ( 'NONE', #371 ) ;
#128 = DIRECTION ( 'NONE',  ( -1.000000000000000000, 0.0000000000000000000, 0.0000000000000000000 ) ) ;
#129 = EDGE_CURVE ( 'NONE', #21, #45, #325, .T. ) ;
#130 = APPROVAL_DATE_TIME ( #309, #123 ) ;
#131 = ORIENTED_EDGE ( 'NONE', *, *, #156, .F. ) ;
#132 = CIRCLE ( 'NONE', #7, 0.4000000000000010200 ) ;
#133 = FACE_OUTER_BOUND ( 'NONE', #370, .T. ) ;
#134 = ADVANCED_FACE ( 'NONE', ( #69 ), #345, .F. ) ;
#135 = ADVANCED_FACE ( 'NONE', ( #215 ), #174, .F. ) ;
#136 = EDGE_CURVE ( 'NONE', #373, #288, #78, .T. ) ;
#137 = DIRECTION ( 'NONE',  ( 0.0000000000000000000, 0.0000000000000000000, -1.000000000000000000 ) ) ;
#138 = CARTESIAN_POINT ( 'NONE',  ( -741.0000000000000000, -3.830000000000020100, 2.830000000000009800 ) ) ;
#139 = ORIENTED_EDGE ( 'NONE', *, *, #184, .F. ) ;
#140 = CARTESIAN_POINT ( 'NONE',  ( -741.0000000000000000, -3.964950154060185000, -0.5595061728395087600 ) ) ;
#141 = PERSON_AND_ORGANIZATION ( #202, #342 ) ;
#142 = CC_DESIGN_SECURITY_CLASSIFICATION ( #296, ( #350 ) ) ;
#143 = FACE_OUTER_BOUND ( 'NONE', #41, .T. ) ;
#144 = VERTEX_POINT ( 'NONE', #320 ) ;
#145 = DIRECTION ( 'NONE',  ( 1.000000000000000000, -0.0000000000000000000, -0.0000000000000000000 ) ) ;
#146 = DIRECTION ( 'NONE',  ( 0.0000000000000000000, 0.0000000000000000000, -1.000000000000000000 ) ) ;
#147 = PERSON_AND_ORGANIZATION_ROLE ( 'creator' ) ;
#148 = PERSON_AND_ORGANIZATION_ROLE ( 'design_supplier' ) ;
#149 = CALENDAR_DATE ( 2023, 15, 1 ) ;
#150 = CARTESIAN_POINT ( 'NONE',  ( -741.0000000000000000, 0.7275322269842485800, -4.199999999999999300 ) ) ;
#151 = APPROVAL ( #380, 'UNSPECIFIED' ) ;
#152 = CIRCLE ( 'NONE', #13, 0.6999999999999970700 ) ;
#153 = EDGE_LOOP ( 'NONE', ( #310, #353, #169, #287 ) ) ;
#154 = CARTESIAN_POINT ( 'NONE',  ( -741.0000000000000000, 3.964950154060180600, -0.5595061728395063200 ) ) ;
#155 = DIRECTION ( 'NONE',  ( 1.000000000000000000, 0.0000000000000000000, 0.0000000000000000000 ) ) ;
#156 = EDGE_CURVE ( 'NONE', #255, #223, #159, .T. ) ;
#157 = CARTESIAN_POINT ( 'NONE',  ( -741.0000000000000000, -3.598128970339700100, 0.0000000000000000000 ) ) ;
#158 = APPLICATION_PROTOCOL_DEFINITION ( 'international standard', 'config_control_design', 1994, #357 ) ;
#159 = LINE ( 'NONE', #346, #222 ) ;
#160 = DIRECTION ( 'NONE',  ( -1.000000000000000000, 0.0000000000000000000, 0.0000000000000000000 ) ) ;
#161 = AXIS2_PLACEMENT_3D ( 'NONE', #186, #53, #327 ) ;
#162 = CARTESIAN_POINT ( 'NONE',  ( 759.0000000000000000, 0.7275322269842500200, -3.500000000000000000 ) ) ;
#163 = CARTESIAN_POINT ( 'NONE',  ( 759.0000000000000000, -0.7275322269842809900, -3.500000000000000000 ) ) ;
#164 = CIRCLE ( 'NONE', #19, 0.4000000000000010200 ) ;
#165 = EDGE_CURVE ( 'NONE', #144, #372, #260, .T. ) ;
#166 = VECTOR ( 'NONE', #344, 1000.000000000000000 ) ;
#167 = DATE_AND_TIME ( #322, #26 ) ;
#168 = PERSON_AND_ORGANIZATION ( #202, #342 ) ;
#169 = ORIENTED_EDGE ( 'NONE', *, *, #136, .T. ) ;
#170 = AXIS2_PLACEMENT_3D ( 'NONE', #302, #192, #329 ) ;
#171 = EDGE_CURVE ( 'NONE', #372, #373, #250, .T. ) ;
#172 = PRODUCT_DEFINITION ( 'UNKNOWN', '', #350, #6 ) ;
#173 = CALENDAR_DATE ( 2023, 15, 1 ) ;
#174 = PLANE ( 'NONE',  #314 ) ;
#175 = ORIENTED_EDGE ( 'NONE', *, *, #165, .T. ) ;
#176 = EDGE_CURVE ( 'NONE', #337, #223, #312, .T. ) ;
#177 = DIRECTION ( 'NONE',  ( -1.000000000000000000, 0.0000000000000000000, 0.0000000000000000000 ) ) ;
#178 = EDGE_CURVE ( 'NONE', #223, #14, #335, .T. ) ;
#179 = SECURITY_CLASSIFICATION_LEVEL ( 'unclassified' ) ;
#180 = AXIS2_PLACEMENT_3D ( 'NONE', #110, #44, #146 ) ;
#181 = VECTOR ( 'NONE', #77, 1000.000000000000000 ) ;
#182 = CIRCLE ( 'NONE', #207, 0.7000000000000018400 ) ;
#183 = VERTEX_POINT ( 'NONE', #290 ) ;
#184 = EDGE_CURVE ( 'NONE', #288, #80, #2, .T. ) ;
#185 = PERSON_AND_ORGANIZATION_ROLE ( 'design_owner' ) ;
#186 = CARTESIAN_POINT ( 'NONE',  ( 759.0000000000000000, -0.7275322269842470200, -4.200000000000000200 ) ) ;
#187 = AXIS2_PLACEMENT_3D ( 'NONE', #307, #4, #60 ) ;
#188 = LOCAL_TIME ( 19, 10, 41.00000000000000000, #104 ) ;
#189 = VECTOR ( 'NONE', #51, 1000.000000000000000 ) ;
#190 = ORIENTED_EDGE ( 'NONE', *, *, #278, .T. ) ;
#191 = ADVANCED_BREP_SHAPE_REPRESENTATION ( '252200133_c_1', ( #124, #61 ), #81 ) ;
#192 = DIRECTION ( 'NONE',  ( -1.000000000000000000, 0.0000000000000000000, 0.0000000000000000000 ) ) ;
#193 = EDGE_CURVE ( 'NONE', #373, #183, #252, .T. ) ;
#194 = PLANE ( 'NONE',  #161 ) ;
#195 = LINE ( 'NONE', #241, #96 ) ;
#196 = CARTESIAN_POINT ( 'NONE',  ( -741.0000000000000000, 0.7275322269842500200, -3.500000000000000000 ) ) ;
#197 = ORIENTED_EDGE ( 'NONE', *, *, #116, .F. ) ;
#198 = ORIENTED_EDGE ( 'NONE', *, *, #193, .F. ) ;
#199 = LOCAL_TIME ( 19, 10, 41.00000000000000000, #33 ) ;
#200 = LOCAL_TIME ( 19, 10, 41.00000000000000000, #378 ) ;
#201 = VERTEX_POINT ( 'NONE', #212 ) ;
#202 = PERSON ( 'UNSPECIFIED', 'UNSPECIFIED', 'UNSPECIFIED', ('UNSPECIFIED'), ('UNSPECIFIED'), ('UNSPECIFIED') ) ;
#203 = DIRECTION ( 'NONE',  ( 1.000000000000000000, -0.0000000000000000000, -0.0000000000000000000 ) ) ;
#204 = DIRECTION ( 'NONE',  ( 1.000000000000000000, -0.0000000000000000000, 0.0000000000000000000 ) ) ;
#205 = ORIENTED_EDGE ( 'NONE', *, *, #82, .T. ) ;
#206 = DIRECTION ( 'NONE',  ( -1.000000000000000000, 0.0000000000000000000, -0.0000000000000000000 ) ) ;
#207 = AXIS2_PLACEMENT_3D ( 'NONE', #163, #308, #91 ) ;
#208 = DIRECTION ( 'NONE',  ( 1.000000000000000000, -0.0000000000000000000, -0.0000000000000000000 ) ) ;
#209 = DIRECTION ( 'NONE',  ( 1.000000000000000000, -0.0000000000000000000, -0.0000000000000000000 ) ) ;
#210 = CIRCLE ( 'NONE', #244, 0.4000000000000010200 ) ;
#211 = APPROVAL_ROLE ( '' ) ;
#212 = CARTESIAN_POINT ( 'NONE',  ( -741.0000000000000000, 1.136541529405912700, -4.068076923076921100 ) ) ;
#213 = CARTESIAN_POINT ( 'NONE',  ( 759.0000000000000000, -3.964950154060180600, -0.5595061728395065400 ) ) ;
#214 = PERSON_AND_ORGANIZATION ( #202, #342 ) ;
#215 = FACE_OUTER_BOUND ( 'NONE', #71, .T. ) ;
#216 = CARTESIAN_POINT ( 'NONE',  ( 759.0000000000000000, 3.598128970339700100, -0.4000000000000000200 ) ) ;
#217 = EDGE_LOOP ( 'NONE', ( #114, #120, #225, #246 ) ) ;
#218 = DIRECTION ( 'NONE',  ( 1.000000000000000000, -0.0000000000000000000, -0.0000000000000000000 ) ) ;
#219 = CC_DESIGN_PERSON_AND_ORGANIZATION_ASSIGNMENT ( #67, #185, ( #315 ) ) ;
#220 = MECHANICAL_CONTEXT ( 'NONE', #357, 'mechanical' ) ;
#221 = PRODUCT_DEFINITION_SHAPE ( 'NONE', 'NONE',  #172 ) ;
#222 = VECTOR ( 'NONE', #101, 1000.000000000000000 ) ;
#223 = VERTEX_POINT ( 'NONE', #23 ) ;
#224 = PERSON_AND_ORGANIZATION ( #202, #342 ) ;
#225 = ORIENTED_EDGE ( 'NONE', *, *, #176, .T. ) ;
#226 = CALENDAR_DATE ( 2023, 15, 1 ) ;
#227 = CC_DESIGN_PERSON_AND_ORGANIZATION_ASSIGNMENT ( #50, #324, ( #296 ) ) ;
#228 = EDGE_LOOP ( 'NONE', ( #317, #279, #247, #42 ) ) ;
#229 = ADVANCED_FACE ( 'NONE', ( #143 ), #282, .T. ) ;
#230 = CYLINDRICAL_SURFACE ( 'NONE', #321, 8.500000000000019500 ) ;
#231 = DIRECTION ( 'NONE',  ( 1.000000000000000000, -0.0000000000000000000, -0.0000000000000000000 ) ) ;
#232 = CARTESIAN_POINT ( 'NONE',  ( 759.0000000000000000, -3.830000000000020100, 2.830000000000009800 ) ) ;
#233 = DATE_AND_TIME ( #173, #199 ) ;
#234 = FACE_OUTER_BOUND ( 'NONE', #352, .T. ) ;
#235 = ORIENTED_EDGE ( 'NONE', *, *, #193, .T. ) ;
#236 = DIRECTION ( 'NONE',  ( -1.000000000000000000, 0.0000000000000000000, 0.0000000000000000000 ) ) ;
#237 = VECTOR ( 'NONE', #206, 1000.000000000000000 ) ;
#238 = ORIENTED_EDGE ( 'NONE', *, *, #165, .F. ) ;
#239 = ORIENTED_EDGE ( 'NONE', *, *, #285, .F. ) ;
#240 = CARTESIAN_POINT ( 'NONE',  ( 759.0000000000000000, -3.830000000000020100, 2.830000000000009800 ) ) ;
#241 = CARTESIAN_POINT ( 'NONE',  ( 759.0000000000000000, 0.7275322269842472400, -4.199999999999997500 ) ) ;
#242 = VECTOR ( 'NONE', #231, 1000.000000000000000 ) ;
#243 = CARTESIAN_POINT ( 'NONE',  ( 0.0000000000000000000, 0.0000000000000000000, 0.0000000000000000000 ) ) ;
#244 = AXIS2_PLACEMENT_3D ( 'NONE', #84, #218, #27 ) ;
#245 = DIRECTION ( 'NONE',  ( 0.0000000000000000000, -1.703746271048656900E-015, 1.000000000000000000 ) ) ;
#246 = ORIENTED_EDGE ( 'NONE', *, *, #178, .T. ) ;
#247 = ORIENTED_EDGE ( 'NONE', *, *, #94, .T. ) ;
#248 = EDGE_CURVE ( 'NONE', #45, #144, #164, .T. ) ;
#249 = CC_DESIGN_APPROVAL ( #83, ( #350 ) ) ;
#250 = LINE ( 'NONE', #284, #237 ) ;
#251 = ORIENTED_EDGE ( 'NONE', *, *, #40, .F. ) ;
#252 = LINE ( 'NONE', #297, #181 ) ;
#253 = CC_DESIGN_APPROVAL ( #123, ( #296 ) ) ;
#254 = FACE_OUTER_BOUND ( 'NONE', #217, .T. ) ;
#255 = VERTEX_POINT ( 'NONE', #150 ) ;
#256 = APPLICATION_CONTEXT ( 'configuration controlled 3d designs of mechanical parts and assemblies' ) ;
#257 = ADVANCED_FACE ( 'NONE', ( #12 ), #10, .T. ) ;
#258 = DIRECTION ( 'NONE',  ( 0.0000000000000000000, 0.0000000000000000000, -1.000000000000000000 ) ) ;
#259 = AXIS2_PLACEMENT_3D ( 'NONE', #9, #365, #31 ) ;
#260 = LINE ( 'NONE', #75, #351 ) ;
#261 = CARTESIAN_POINT ( 'NONE',  ( 759.0000000000000000, 1.136541529405912700, -4.068076923076921100 ) ) ;
#262 = PLANE ( 'NONE',  #180 ) ;
#263 = VECTOR ( 'NONE', #209, 1000.000000000000000 ) ;
#264 = ORIENTED_EDGE ( 'NONE', *, *, #129, .T. ) ;
#265 = DIRECTION ( 'NONE',  ( -1.000000000000000000, 0.0000000000000000000, 0.0000000000000000000 ) ) ;
#266 = APPROVAL_STATUS ( 'not_yet_approved' ) ;
#267 = CARTESIAN_POINT ( 'NONE',  ( 759.0000000000000000, 3.598128970339700100, -0.4000000000000000200 ) ) ;
#268 = EDGE_CURVE ( 'NONE', #21, #201, #369, .T. ) ;
#269 = DIRECTION ( 'NONE',  ( -1.000000000000000000, 0.0000000000000000000, 0.0000000000000000000 ) ) ;
#270 =( NAMED_UNIT ( * ) PLANE_ANGLE_UNIT ( ) SI_UNIT ( $, .RADIAN. ) );
#271 = APPROVAL_PERSON_ORGANIZATION ( #316, #151, #115 ) ;
#272 =( LENGTH_UNIT ( ) NAMED_UNIT ( * ) SI_UNIT ( .MILLI., .METRE. ) );
#273 = AXIS2_PLACEMENT_3D ( 'NONE', #107, #137, #17 ) ;
#274 = DIRECTION ( 'NONE',  ( 0.0000000000000000000, 0.0000000000000000000, 1.000000000000000000 ) ) ;
#275 = CARTESIAN_POINT ( 'NONE',  ( 759.0000000000000000, -0.7275322269842809900, -3.500000000000000000 ) ) ;
#276 = ORIENTED_EDGE ( 'NONE', *, *, #156, .T. ) ;
#277 = ORIENTED_EDGE ( 'NONE', *, *, #285, .T. ) ;
#278 = EDGE_CURVE ( 'NONE', #14, #331, #68, .T. ) ;
#279 = ORIENTED_EDGE ( 'NONE', *, *, #328, .T. ) ;
#280 = ORIENTED_EDGE ( 'NONE', *, *, #95, .F. ) ;
#281 = ADVANCED_FACE ( 'NONE', ( #234 ), #262, .T. ) ;
#282 = CYLINDRICAL_SURFACE ( 'NONE', #126, 8.499999999999980500 ) ;
#283 = ORIENTED_EDGE ( 'NONE', *, *, #171, .F. ) ;
#284 = CARTESIAN_POINT ( 'NONE',  ( 759.0000000000000000, -3.598128970339700600, 0.0000000000000000000 ) ) ;
#285 = EDGE_CURVE ( 'NONE', #30, #183, #210, .T. ) ;
#286 = CALENDAR_DATE ( 2023, 15, 1 ) ;
#287 = ORIENTED_EDGE ( 'NONE', *, *, #184, .T. ) ;
#288 = VERTEX_POINT ( 'NONE', #140 ) ;
#289 = DIRECTION ( 'NONE',  ( -0.0000000000000000000, -1.000000000000000000, -0.0000000000000000000 ) ) ;
#290 = CARTESIAN_POINT ( 'NONE',  ( -741.0000000000000000, 3.598128970339705000, 0.0000000000000000000 ) ) ;
#291 = CARTESIAN_POINT ( 'NONE',  ( 759.0000000000000000, -3.598128970339700100, -0.4000000000000010200 ) ) ;
#292 = COORDINATED_UNIVERSAL_TIME_OFFSET ( 8, 0, .BEHIND. ) ;
#293 = AXIS2_PLACEMENT_3D ( 'NONE', #39, #374, #43 ) ;
#294 = DIRECTION ( 'NONE',  ( 0.0000000000000000000, 0.0000000000000000000, 1.000000000000000000 ) ) ;
#295 = ORIENTED_EDGE ( 'NONE', *, *, #248, .T. ) ;
#296 = SECURITY_CLASSIFICATION ( '', '', #179 ) ;
#297 = CARTESIAN_POINT ( 'NONE',  ( -741.0000000000000000, 3.598128970339709900, 0.0000000000000000000 ) ) ;
#298 = APPROVAL_PERSON_ORGANIZATION ( #141, #83, #381 ) ;
#299 = CYLINDRICAL_SURFACE ( 'NONE', #88, 0.7000000000000018400 ) ;
#300 = CARTESIAN_POINT ( 'NONE',  ( 759.0000000000000000, -3.598128970339700100, 0.0000000000000000000 ) ) ;
#301 = ORIENTED_EDGE ( 'NONE', *, *, #176, .F. ) ;
#302 = CARTESIAN_POINT ( 'NONE',  ( 759.0000000000000000, 0.7275322269842500200, -3.500000000000000000 ) ) ;
#303 = DIRECTION ( 'NONE',  ( -1.000000000000000000, 0.0000000000000000000, 0.0000000000000000000 ) ) ;
#304 =( NAMED_UNIT ( * ) SI_UNIT ( $, .STERADIAN. ) SOLID_ANGLE_UNIT ( ) );
#305 = ORIENTED_EDGE ( 'NONE', *, *, #340, .F. ) ;
#306 = EDGE_CURVE ( 'NONE', #80, #372, #132, .T. ) ;
#307 = CARTESIAN_POINT ( 'NONE',  ( -741.0000000000000000, -3.830000000000020100, 2.830000000000009800 ) ) ;
#308 = DIRECTION ( 'NONE',  ( -1.000000000000000000, 0.0000000000000000000, 0.0000000000000000000 ) ) ;
#309 = DATE_AND_TIME ( #149, #362 ) ;
#310 = ORIENTED_EDGE ( 'NONE', *, *, #306, .T. ) ;
#311 = ADVANCED_FACE ( 'NONE', ( #37 ), #74, .T. ) ;
#312 = CIRCLE ( 'NONE', #333, 0.7000000000000018400 ) ;
#313 = VECTOR ( 'NONE', #102, 1000.000000000000000 ) ;
#314 = AXIS2_PLACEMENT_3D ( 'NONE', #138, #204, #258 ) ;
#315 = PRODUCT ( '252200133_c_1', '252200133_c_1', '', ( #220 ) ) ;
#316 = PERSON_AND_ORGANIZATION ( #202, #342 ) ;
#317 = ORIENTED_EDGE ( 'NONE', *, *, #65, .T. ) ;
#318 = CARTESIAN_POINT ( 'NONE',  ( 759.0000000000000000, -1.136541392590760800, -4.068077021582374700 ) ) ;
#319 = ORIENTED_EDGE ( 'NONE', *, *, #116, .T. ) ;
#320 = CARTESIAN_POINT ( 'NONE',  ( 759.0000000000000000, 3.598128970339705000, 0.0000000000000000000 ) ) ;
#321 = AXIS2_PLACEMENT_3D ( 'NONE', #240, #160, #55 ) ;
#322 = CALENDAR_DATE ( 2023, 15, 1 ) ;
#323 = ORIENTED_EDGE ( 'NONE', *, *, #94, .F. ) ;
#324 = PERSON_AND_ORGANIZATION_ROLE ( 'classification_officer' ) ;
#325 = CIRCLE ( 'NONE', #111, 8.500000000000019500 ) ;
#326 = ORIENTED_EDGE ( 'NONE', *, *, #178, .F. ) ;
#327 = DIRECTION ( 'NONE',  ( 1.000000000000000000, 0.0000000000000000000, -0.0000000000000000000 ) ) ;
#328 = EDGE_CURVE ( 'NONE', #331, #255, #195, .T. ) ;
#329 = DIRECTION ( 'NONE',  ( 0.0000000000000000000, 0.0000000000000000000, 1.000000000000000000 ) ) ;
#330 = DIRECTION ( 'NONE',  ( 0.0000000000000000000, 0.0000000000000000000, 1.000000000000000000 ) ) ;
#331 = VERTEX_POINT ( 'NONE', #87 ) ;
#332 = CARTESIAN_POINT ( 'NONE',  ( 759.0000000000000000, 3.964950154060180600, -0.5595061728395059900 ) ) ;
#333 = AXIS2_PLACEMENT_3D ( 'NONE', #73, #208, #294 ) ;
#334 = CARTESIAN_POINT ( 'NONE',  ( 759.0000000000000000, 1.136541529405912700, -4.068076923076921100 ) ) ;
#335 = LINE ( 'NONE', #376, #242 ) ;
#336 = FACE_OUTER_BOUND ( 'NONE', #359, .T. ) ;
#337 = VERTEX_POINT ( 'NONE', #119 ) ;
#338 = DIRECTION ( 'NONE',  ( 1.000000000000000000, -0.0000000000000000000, -0.0000000000000000000 ) ) ;
#339 = PRODUCT_RELATED_PRODUCT_CATEGORY ( 'detail', '', ( #315 ) ) ;
#340 = EDGE_CURVE ( 'NONE', #80, #127, #90, .T. ) ;
#341 = VECTOR ( 'NONE', #177, 1000.000000000000000 ) ;
#342 = ORGANIZATION ( 'UNSPECIFIED', 'UNSPECIFIED', '' ) ;
#343 = CIRCLE ( 'NONE', #32, 0.6999999999999970700 ) ;
#344 = DIRECTION ( 'NONE',  ( 1.000000000000000000, -0.0000000000000000000, 0.0000000000000000000 ) ) ;
#345 = PLANE ( 'NONE',  #273 ) ;
#346 = CARTESIAN_POINT ( 'NONE',  ( -741.0000000000000000, -0.7275322269842470200, -4.200000000000000200 ) ) ;
#347 = PERSON_AND_ORGANIZATION ( #202, #342 ) ;
#348 = SHAPE_DEFINITION_REPRESENTATION ( #221, #191 ) ;
#349 = DIRECTION ( 'NONE',  ( 0.0000000000000000000, 0.0000000000000000000, 1.000000000000000000 ) ) ;
#350 = PRODUCT_DEFINITION_FORMATION_WITH_SPECIFIED_SOURCE ( 'ANY', '', #315, .NOT_KNOWN. ) ;
#351 = VECTOR ( 'NONE', #289, 1000.000000000000000 ) ;
#352 = EDGE_LOOP ( 'NONE', ( #190, #63, #264, #295, #175, #118, #59, #93 ) ) ;
#353 = ORIENTED_EDGE ( 'NONE', *, *, #171, .T. ) ;
#354 = PERSON_AND_ORGANIZATION_ROLE ( 'creator' ) ;
#355 = APPROVAL_STATUS ( 'not_yet_approved' ) ;
#356 = CARTESIAN_POINT ( 'NONE',  ( 759.0000000000000000, -0.7275322269842470200, -4.200000000000000200 ) ) ;
#357 = APPLICATION_CONTEXT ( 'configuration controlled 3d designs of mechanical parts and assemblies' ) ;
#358 = ORIENTED_EDGE ( 'NONE', *, *, #278, .F. ) ;
#359 = EDGE_LOOP ( 'NONE', ( #366, #35, #277, #319 ) ) ;
#360 = DIRECTION ( 'NONE',  ( -1.000000000000000000, 0.0000000000000000000, 0.0000000000000000000 ) ) ;
#361 = AXIS2_PLACEMENT_3D ( 'NONE', #216, #269, #274 ) ;
#362 = LOCAL_TIME ( 19, 10, 41.00000000000000000, #292 ) ;
#363 = CC_DESIGN_DATE_AND_TIME_ASSIGNMENT ( #377, #24, ( #296 ) ) ;
#364 = CIRCLE ( 'NONE', #187, 8.500000000000019500 ) ;
#365 = DIRECTION ( 'NONE',  ( 1.000000000000000000, -0.0000000000000000000, -0.0000000000000000000 ) ) ;
#366 = ORIENTED_EDGE ( 'NONE', *, *, #248, .F. ) ;
#367 = ORIENTED_EDGE ( 'NONE', *, *, #129, .F. ) ;
#368 = APPROVAL_PERSON_ORGANIZATION ( #214, #123, #211 ) ;
#369 = LINE ( 'NONE', #261, #341 ) ;
#370 = EDGE_LOOP ( 'NONE', ( #38, #358, #326, #131 ) ) ;
#371 = CARTESIAN_POINT ( 'NONE',  ( 759.0000000000000000, -1.136541460998354000, -4.068076972329649300 ) ) ;
#372 = VERTEX_POINT ( 'NONE', #300 ) ;
#373 = VERTEX_POINT ( 'NONE', #157 ) ;
#374 = DIRECTION ( 'NONE',  ( 1.000000000000000000, -0.0000000000000000000, -0.0000000000000000000 ) ) ;
#375 = UNCERTAINTY_MEASURE_WITH_UNIT (LENGTH_MEASURE( 1.000000000000000100E-005 ), #272, 'distance_accuracy_value', 'NONE');
#376 = CARTESIAN_POINT ( 'NONE',  ( 759.0000000000000000, -0.7275322269842470200, -4.200000000000002000 ) ) ;
#377 = DATE_AND_TIME ( #286, #188 ) ;
#378 = COORDINATED_UNIVERSAL_TIME_OFFSET ( 8, 0, .BEHIND. ) ;
#379 = ORIENTED_EDGE ( 'NONE', *, *, #82, .F. ) ;
#380 = APPROVAL_STATUS ( 'not_yet_approved' ) ;
#381 = APPROVAL_ROLE ( '' ) ;
ENDSEC;
END-ISO-10303-21;
